Letras de Canciones

Letras Canciones:

200031
Usuarios Online:
2469
Usuario: Clave: Registrate
Letras Canciones | Agrega Letras | Busqueda Avanzada | Canciones Traducidas |

Cancion Esperanza de Nelson Ibarra


Letra de Canción : Esperanza
Cantante : Nelson Ibarra
Album : Sencillos y Otras
Acordes de Esperanza    
Calificacion Promedio: 0   Votos: 0
| Imprimir |



ESPERANZA
Ritmo: Pasillo lento
Autor: Nelson Ibarra (Jorge Villamil confirmar)
La canción es numérica
La-
213-112 213-112 212-110 210-18---213-112 213-112 213-112
5ª.La
212-110---212-110 212-110 212-110-110---212-110 213-112 212-110
La- 5ª.Re Re-
110-18---213-112 213-112 212-110 210-18---18-110-112-113---215-
La- 5ª.La
113 215-113 215-113---213-112 213-112 213-112----212-110 212-110
La-
212-110 210-18----
5ª.La la-
10-10-10-10-10-17-14-10-17-14-10-17-14-10-17-14-10-18-15-10-18-
5ª.La
15-10-18-15-10-18-15-10-110-17-10-110-17-10-110-17-10-110-17-10-
La- 5ª.La
110-17-10-18-15-10-18-15-10-18-15-10-18-15-10-17-15-10---10-10-
La-
10-10-10-11-10-23-21-20-32----
5ª.La
50-53-42-32----32-32---50-53-42-32-21-32---31-31---42-43-42-41-
La-
42-31-20---42-31-20-31-42-42-40---53---50-53-42-32---32-32---33-
Re- La- 5ª.La
32-30-32-42-30-43---20-32-30-20-32-30-43---42---42-43-42---40-40-
Re- La- 5ª.La
42-40---53---20-32-30-20-32-30-43---42---42-43-42---40-40---42-
La-
40-53.
Do+ Re-
10-10-10-10-10---10-10--10-10-10-10-10-10-11---11-11----11-11-11-
5ª.Do Do+ 5ª.La
11---11-11---11-11-11-11-11-11-10----10-10---10-10-10-14---14-14-
La- 5ª.La
--10-10-10-10-10-10-15---15-15---10-10-10-14---14-14---10-11-10-
La-
23-21-20-32---32-32.
5ª.La La-
10-10-10-10-10-17-14-10-17-14-10-17-14-10-17-14-10-18-15-10-18-
5ª.La
15-10-18-15-10-18-15-10-110-17-10-110-17-10-110-17-10-110-17-10-
La-
18--- Hasta el final.

| Enviada por: edherbel18 (7) |
Paginas que te Recomendamos
Chismes ¤ Mujer ¤ Para Hombres ¤ Canciones Traducidas ¤ Letras Canciones ¤



>> Paginas Amigas

Tu pagina Aqui
Ask Lyrics
Lyrics Provider
Acordes y Tablaturas
Letras Canciones
Portal del Rock